  0
SECTION
  2
HEADER
  9
$ACADVER
  1
AC1014
  9
$HANDSEED
  5
FFFF
  9
$MEASUREMENT
 70
     1
  0
ENDSEC
  0
SECTION
  2
TABLES
  0
TABLE
  2
VPORT
  5
8
330
0
100
AcDbSymbolTable
 70
     4
  0
VPORT
  5
2E
330
8
100
AcDbSymbolTableRecord
100
AcDbViewportTableRecord
  2
*ACTIVE
 70
     0
 10
0.0
 20
0.0
 11
1.0
 21
1.0
 12
210.0
 22
148.5
 13
0.0
 23
0.0
 14
10.0
 24
10.0
 15
10.0
 25
10.0
 16
0.0
 26
0.0
 36
1.0
 17
0.0
 27
0.0
 37
0.0
 40
341.0
 41
1.24
 42
50.0
 43
0.0
 44
0.0
 50
0.0
 51
0.0
 71
     0
 72
   100
 73
     1
 74
     3
 75
     0
 76
     0
 77
     0
 78
     0
  0
ENDTAB
  0
TABLE
  2
LTYPE
  5
5
330
0
100
AcDbSymbolTable
 70
     1
  0
LTYPE
  5
14
330
5
100
AcDbSymbolTableRecord
100
AcDbLinetypeTableRecord
  2
BYBLOCK
 70
     0
  3

 72
    65
 73
     0
 40
0.0
  0
LTYPE
  5
15
330
5
100
AcDbSymbolTableRecord
100
AcDbLinetypeTableRecord
  2
BYLAYER
 70
     0
  3

 72
    65
 73
     0
 40
0.0
  0
LTYPE
  5
16
330
5
100
AcDbSymbolTableRecord
100
AcDbLinetypeTableRecord
  2
CONTINUOUS
 70
     0
  3
Solid line
 72
    65
 73
     0
 40
0.0
  0
ENDTAB
  0
TABLE
  2
LAYER
  5
2
100
AcDbSymbolTable
 70
5
  0
LAYER
  5
50
100
AcDbSymbolTableRecord
100
AcDbLayerTableRecord
  2
0
 70
0
  6
CONTINUOUS
  0
LAYER
  5
51
100
AcDbSymbolTableRecord
100
AcDbLayerTableRecord
  2
redBase
 70
0
  6
CONTINUOUS
  0
LAYER
  5
52
100
AcDbSymbolTableRecord
100
AcDbLayerTableRecord
  2
blueReinforce
 70
0
  6
CONTINUOUS
  0
LAYER
  5
53
100
AcDbSymbolTableRecord
100
AcDbLayerTableRecord
  2
greenSpine
 70
0
  6
CONTINUOUS
  0
LAYER
  5
54
100
AcDbSymbolTableRecord
100
AcDbLayerTableRecord
  2
purpleTop
 70
0
  6
CONTINUOUS
  0
ENDTAB
  0
TABLE
  2
STYLE
  5
3
330
0
100
AcDbSymbolTable
 70
     1
  0
STYLE
  5
11
330
3
100
AcDbSymbolTableRecord
100
AcDbTextStyleTableRecord
  2
STANDARD
 70
     0
 40
0.0
 41
1.0
 50
0.0
 71
     0
 42
2.5
  3
txt
  4

  0
ENDTAB
  0
TABLE
  2
VIEW
  5
6
330
0
100
AcDbSymbolTable
 70
     0
  0
ENDTAB
  0
TABLE
  2
UCS
  5
7
330
0
100
AcDbSymbolTable
 70
     0
  0
ENDTAB
  0
TABLE
  2
APPID
  5
9
330
0
100
AcDbSymbolTable
 70
     2
  0
APPID
  5
12
330
9
100
AcDbSymbolTableRecord
100
AcDbRegAppTableRecord
  2
ACAD
 70
     0
  0
ENDTAB
  0
TABLE
  2
DIMSTYLE
  5
A
330
0
100
AcDbSymbolTable
 70
     1
  0
DIMSTYLE
105
27
330
A
100
AcDbSymbolTableRecord
100
AcDbDimStyleTableRecord
  2
ISO-25
 70
     0
  3

  4

  5

  6

  7

 40
1.0
 41
2.5
 42
0.625
 43
3.75
 44
1.25
 45
0.0
 46
0.0
 47
0.0
 48
0.0
140
2.5
141
2.5
142
0.0
143
0.03937007874016
144
1.0
145
0.0
146
1.0
147
0.625
 71
     0
 72
     0
 73
     0
 74
     0
 75
     0
 76
     0
 77
     1
 78
     8
170
     0
171
     3
172
     1
173
     0
174
     0
175
     0
176
     0
177
     0
178
     0
270
     2
271
     2
272
     2
273
     2
274
     3
340
11
275
     0
280
     0
281
     0
282
     0
283
     0
284
     8
285
     0
286
     0
287
     3
288
     0
  0
ENDTAB
  0
TABLE
  2
BLOCK_RECORD
  5
1
330
0
100
AcDbSymbolTable
 70
     1
  0
BLOCK_RECORD
  5
1F
330
1
100
AcDbSymbolTableRecord
100
AcDbBlockTableRecord
  2
*MODEL_SPACE
  0
BLOCK_RECORD
  5
1B
330
1
100
AcDbSymbolTableRecord
100
AcDbBlockTableRecord
  2
*PAPER_SPACE
  0
ENDTAB
  0
ENDSEC
  0
SECTION
  2
BLOCKS
  0
BLOCK
  5
20
330
1F
100
AcDbEntity
  8
0
100
AcDbBlockBegin
  2
*MODEL_SPACE
 70
     0
 10
0.0
 20
0.0
 30
0.0
  3
*MODEL_SPACE
  1

  0
ENDBLK
  5
21
330
1F
100
AcDbEntity
  8
0
100
AcDbBlockEnd
  0
BLOCK
  5
1C
330
1B
100
AcDbEntity
 67
     1
  8
0
100
AcDbBlockBegin
  2
*PAPER_SPACE
  1

  0
ENDBLK
  5
1D
330
1B
100
AcDbEntity
 67
     1
  8
0
100
AcDbBlockEnd
  0
ENDSEC
  0
SECTION
  2
ENTITIES
  0
LINE
  5
100
100
AcDbEntity
  8
greenSpine
 62
1
100
AcDbLine
 10
97.470510
 20
212.307690
 30
0.0
 11
96.593513
 21
202.559250
 31
0.0
  0
LINE
  5
101
100
AcDbEntity
  8
greenSpine
 62
1
100
AcDbLine
 10
96.593513
 20
202.559250
 30
0.0
 11
95.397291
 21
191.956533
 31
0.0
  0
LINE
  5
102
100
AcDbEntity
  8
greenSpine
 62
1
100
AcDbLine
 10
95.397291
 20
191.956533
 30
0.0
 11
93.607050
 21
178.941781
 31
0.0
  0
LINE
  5
103
100
AcDbEntity
  8
greenSpine
 62
1
100
AcDbLine
 10
93.607050
 20
178.941781
 30
0.0
 11
91.156140
 21
164.570216
 31
0.0
  0
LINE
  5
104
100
AcDbEntity
  8
greenSpine
 62
1
100
AcDbLine
 10
91.156140
 20
164.570216
 30
0.0
 11
87.977909
 21
149.897059
 31
0.0
  0
LINE
  5
105
100
AcDbEntity
  8
greenSpine
 62
1
100
AcDbLine
 10
87.977909
 20
149.897059
 30
0.0
 11
86.095220
 21
142.777141
 31
0.0
  0
LINE
  5
106
100
AcDbEntity
  8
greenSpine
 62
1
100
AcDbLine
 10
86.095220
 20
142.777141
 30
0.0
 11
84.005706
 21
135.977533
 31
0.0
  0
LINE
  5
107
100
AcDbEntity
  8
greenSpine
 62
1
100
AcDbLine
 10
84.005706
 20
135.977533
 30
0.0
 11
81.701037
 21
129.630139
 31
0.0
  0
LINE
  5
108
100
AcDbEntity
  8
greenSpine
 62
1
100
AcDbLine
 10
81.701037
 20
129.630139
 30
0.0
 11
79.172880
 21
123.866860
 31
0.0
  0
LINE
  5
109
100
AcDbEntity
  8
greenSpine
 62
1
100
AcDbLine
 10
79.172880
 20
123.866860
 30
0.0
 11
76.230961
 21
118.456884
 31
0.0
  0
LINE
  5
10a
100
AcDbEntity
  8
greenSpine
 62
1
100
AcDbLine
 10
76.230961
 20
118.456884
 30
0.0
 11
72.745198
 21
113.085520
 31
0.0
  0
LINE
  5
10b
100
AcDbEntity
  8
greenSpine
 62
1
100
AcDbLine
 10
72.745198
 20
113.085520
 30
0.0
 11
68.797544
 21
107.758858
 31
0.0
  0
LINE
  5
10c
100
AcDbEntity
  8
greenSpine
 62
1
100
AcDbLine
 10
68.797544
 20
107.758858
 30
0.0
 11
64.469957
 21
102.482986
 31
0.0
  0
LINE
  5
10d
100
AcDbEntity
  8
greenSpine
 62
1
100
AcDbLine
 10
64.469957
 20
102.482986
 30
0.0
 11
55.002802
 21
92.107967
 31
0.0
  0
LINE
  5
10e
100
AcDbEntity
  8
greenSpine
 62
1
100
AcDbLine
 10
55.002802
 20
92.107967
 30
0.0
 11
44.999378
 21
82.009170
 31
0.0
  0
LINE
  5
10f
100
AcDbEntity
  8
greenSpine
 62
1
100
AcDbLine
 10
44.999378
 20
82.009170
 30
0.0
 11
35.115328
 21
72.235305
 31
0.0
  0
LINE
  5
110
100
AcDbEntity
  8
greenSpine
 62
1
100
AcDbLine
 10
35.115328
 20
72.235305
 30
0.0
 11
26.006297
 21
62.835081
 31
0.0
  0
LINE
  5
111
100
AcDbEntity
  8
greenSpine
 62
1
100
AcDbLine
 10
26.006297
 20
62.835081
 30
0.0
 11
18.327930
 21
53.857207
 31
0.0
  0
LINE
  5
112
100
AcDbEntity
  8
greenSpine
 62
1
100
AcDbLine
 10
18.327930
 20
53.857207
 30
0.0
 11
15.230134
 21
49.541872
 31
0.0
  0
LINE
  5
113
100
AcDbEntity
  8
greenSpine
 62
1
100
AcDbLine
 10
15.230134
 20
49.541872
 30
0.0
 11
12.735870
 21
45.350390
 31
0.0
  0
LINE
  5
114
100
AcDbEntity
  8
greenSpine
 62
1
100
AcDbLine
 10
12.735870
 20
45.350390
 30
0.0
 11
8.901401
 21
37.109672
 31
0.0
  0
LINE
  5
115
100
AcDbEntity
  8
greenSpine
 62
1
100
AcDbLine
 10
8.901401
 20
37.109672
 30
0.0
 11
5.976802
 21
29.080023
 31
0.0
  0
LINE
  5
116
100
AcDbEntity
  8
greenSpine
 62
1
100
AcDbLine
 10
5.976802
 20
29.080023
 30
0.0
 11
3.839216
 21
21.535047
 31
0.0
  0
LINE
  5
117
100
AcDbEntity
  8
greenSpine
 62
1
100
AcDbLine
 10
3.839216
 20
21.535047
 30
0.0
 11
2.365782
 21
14.748349
 31
0.0
  0
LINE
  5
118
100
AcDbEntity
  8
greenSpine
 62
1
100
AcDbLine
 10
2.365782
 20
14.748349
 30
0.0
 11
0.919942
 21
4.544200
 31
0.0
  0
LINE
  5
119
100
AcDbEntity
  8
greenSpine
 62
1
100
AcDbLine
 10
0.919942
 20
4.544200
 30
0.0
 11
0.656410
 21
0.656410
 31
0.0
  0
LINE
  5
11a
100
AcDbEntity
  8
greenSpine
 62
1
100
AcDbLine
 10
0.656410
 20
0.656410
 30
0.0
 11
97.292060
 21
63.469580
 31
0.0
  0
LINE
  5
11b
100
AcDbEntity
  8
greenSpine
 62
1
100
AcDbLine
 10
97.292060
 20
63.469580
 30
0.0
 11
97.470510
 21
212.307690
 31
0.0
  0
ENDSEC
  0
SECTION
  2
OBJECTS
  0
DICTIONARY
  5
C
330
0
100
AcDbDictionary
  3
ACAD_GROUP
350
D
  3
ACAD_MLINESTYLE
350
17
  0
DICTIONARY
  5
D
330
C
100
AcDbDictionary
  0
DICTIONARY
  5
1A
330
C
100
AcDbDictionary
  0
DICTIONARY
  5
17
330
C
100
AcDbDictionary
  3
STANDARD
350
18
  0
DICTIONARY
  5
19
330
C
100
AcDbDictionary
  0
ENDSEC
  0
EOF
